James Bond Theme by Monty Norman | Learn to play on the Guitar

The James Bond Theme by Monty Norman is the main signature theme music of the James Bond films and has featured in every Eon Productions Bond film since Dr. No, released in 1962. The piece has been used as an accompanying fanfare to the gun barrel sequence in almost every James Bond film.

You can learn to play hundreds of popular songs with guitar chords, lyrics and a strumming trainer directly in the Uberchord app.

Key of the Song: G major

The original key for James Bond Theme by Monty Norman is G major.

Video Lesson

James Bond Theme by Monty Norman – Guitar Tabs

e---------------------------------------|-------------------------------------|
B---------------------------------------|-------------------------------------|
G---------------------------------------|-------------------------------------|
D---------------------------------------|-------------------------------------|
A---------------------------------------|-------------------------------------|
E-0--2--2--2--2--0--0--0--0--3--3--3--2-|0--2--2--2--2--0--0--0--0--3--3--3--2|
 
e-------------------------------------|
B-------------------------------------|
G-------------------------------------|
D-------------------------------------|
A-------------------------------------|
E0--2--2--2--2--0--0--0--0--3--3--3--2|
 
e---------------|
B---------------|
G---------------|
D--1--0---------|
A-------2--0--2-|
E---------------|
 
========================
 
e---------------------|----------------------|
B---------------------|----------------------|
G--------8--7---------|----------------------|
D-----5--------5--8--9|--5--7--5--4-----2----|
A--7------------------|--------------2-----4-|
E---------------------|----------------------|
 
e---------------------|----------------------|
B---------------------|----------------------|
G--------8--7---------|----------------------|
D-----5--------5--8--9|--5--7--5--4-----1--2-|
A--7------------------|--------------2-------|
E---------------------|----------------------|
 
e---------------------|----------------------|
B---------------------|----------------------|
G--------8--7---------|----------------------|
D-----5--------5--8--9|--5--7--5--4-----2----|
A--7------------------|--------------2-----4-|
E---------------------|----------------------|
 
e---------------------|----------------------|
B---------------------|----------------------|
G--------8--7---------|----------------------|
D-----5--------5--8--9|--5--7--5--4-----1--2-|
A--7------------------|--------------2-------|
E---------------------|----------------------|
 
e----------------------|---------------------|
B----------------------|---------------------|
G----------------------|---------------------|
D--2--2----2--4--2--4--|--5--5----5--4--2--4-|
A----------------------|---------------------|
E----------------------|---------------------|

Click on a star to rate it!

Average rating / 5. Vote count:

No votes so far! Be the first to rate this post.